  0
SECTION
  2
HEADER
  9
$ACADVER
  1
AC1014
  9
$ACADMAINTVER
 70
     5
  9
$DWGCODEPAGE
  3
ANSI_1252
  9
$INSBASE
 10
0.0
 20
0.0
 30
0.0
  9
$EXTMIN
 10
-108.565913
 20
-5.056057
 30
-0.001526
  9
$EXTMAX
 10
218.002689
 20
445.497988
 30
0.0
  9
$LIMMIN
 10
0.0
 20
0.0
  9
$LIMMAX
 10
2378.0
 20
1682.0
  9
$ORTHOMODE
 70
     1
  9
$REGENMODE
 70
     1
  9
$FILLMODE
 70
     1
  9
$QTEXTMODE
 70
     0
  9
$MIRRTEXT
 70
     1
  9
$DRAGMODE
 70
     2
  9
$LTSCALE
 40
1.0
  9
$OSMODE
 70
     0
  9
$ATTMODE
 70
     1
  9
$TEXTSIZE
 40
20.0
  9
$TRACEWID
 40
0.05
  9
$TEXTSTYLE
  7
ROMANS
  9
$CLAYER
  8
VHH-INS
  9
$CELTYPE
  6
BYLAYER
  9
$CECOLOR
 62
   256
  9
$CELTSCALE
 40
1.0
  9
$DELOBJ
 70
     1
  9
$DISPSILH
 70
     0
  9
$DIMSCALE
 40
1.0
  9
$DIMASZ
 40
8.8
  9
$DIMEXO
 40
6.0
  9
$DIMDLI
 40
28.0
  9
$DIMRND
 40
0.0
  9
$DIMDLE
 40
0.0
  9
$DIMEXE
 40
4.8
  9
$DIMTP
 40
0.0
  9
$DIMTM
 40
0.0
  9
$DIMTXT
 40
10.0
  9
$DIMCEN
 40
-3.0
  9
$DIMTSZ
 40
0.0
  9
$DIMTOL
 70
     0
  9
$DIMLIM
 70
     0
  9
$DIMTIH
 70
     0
  9
$DIMTOH
 70
     0
  9
$DIMSE1
 70
     0
  9
$DIMSE2
 70
     0
  9
$DIMTAD
 70
     1
  9
$DIMZIN
 70
     0
  9
$DIMBLK
  1

  9
$DIMASO
 70
     0
  9
$DIMSHO
 70
     1
  9
$DIMPOST
  1

  9
$DIMAPOST
  1

  9
$DIMALT
 70
     0
  9
$DIMALTD
 70
     2
  9
$DIMALTF
 40
25.4
  9
$DIMLFAC
 40
1.0
  9
$DIMTOFL
 70
     0
  9
$DIMTVP
 40
0.0
  9
$DIMTIX
 70
     0
  9
$DIMSOXD
 70
     0
  9
$DIMSAH
 70
     0
  9
$DIMBLK1
  1

  9
$DIMBLK2
  1

  9
$DIMSTYLE
  2
STANDARD
  9
$DIMCLRD
 70
     0
  9
$DIMCLRE
 70
     0
  9
$DIMCLRT
 70
     0
  9
$DIMTFAC
 40
1.0
  9
$DIMGAP
 40
0.09
  9
$DIMJUST
 70
     0
  9
$DIMSD1
 70
     0
  9
$DIMSD2
 70
     0
  9
$DIMTOLJ
 70
     1
  9
$DIMTZIN
 70
     0
  9
$DIMALTZ
 70
     0
  9
$DIMALTTZ
 70
     0
  9
$DIMFIT
 70
     5
  9
$DIMUPT
 70
     0
  9
$DIMUNIT
 70
     2
  9
$DIMDEC
 70
     2
  9
$DIMTDEC
 70
     2
  9
$DIMALTU
 70
     2
  9
$DIMALTTD
 70
     2
  9
$DIMTXSTY
  7
ROMANS
  9
$DIMAUNIT
 70
     0
  9
$LUNITS
 70
     2
  9
$LUPREC
 70
     2
  9
$SKETCHINC
 40
0.1
  9
$FILLETRAD
 40
2.0
  9
$AUNITS
 70
     0
  9
$AUPREC
 70
     2
  9
$MENU
  1
wtb2
  9
$ELEVATION
 40
0.0
  9
$PELEVATION
 40
0.0
  9
$THICKNESS
 40
0.0
  9
$LIMCHECK
 70
     0
  9
$BLIPMODE
 70
     0
  9
$CHAMFERA
 40
1.6
  9
$CHAMFERB
 40
2.5
  9
$CHAMFERC
 40
0.0
  9
$CHAMFERD
 40
0.0
  9
$SKPOLY
 70
     0
  9
$TDCREATE
 40
2451277.606034062
  9
$TDUPDATE
 40
2451302.328692303
  9
$TDINDWG
 40
0.5413901620
  9
$TDUSRTIMER
 40
0.5413901620
  9
$USRTIMER
 70
     1
  9
$ANGBASE
 50
0.0
  9
$ANGDIR
 70
     0
  9
$PDMODE
 70
     0
  9
$PDSIZE
 40
0.0
  9
$PLINEWID
 40
0.0
  9
$COORDS
 70
     2
  9
$SPLFRAME
 70
     0
  9
$SPLINETYPE
 70
     6
  9
$SPLINESEGS
 70
     8
  9
$ATTDIA
 70
     0
  9
$ATTREQ
 70
     1
  9
$HANDLING
 70
     1
  9
$HANDSEED
  5
A7
  9
$SURFTAB1
 70
     6
  9
$SURFTAB2
 70
     6
  9
$SURFTYPE
 70
     6
  9
$SURFU
 70
     6
  9
$SURFV
 70
     6
  9
$UCSNAME
  2

  9
$UCSORG
 10
0.0
 20
0.0
 30
0.0
  9
$UCSXDIR
 10
1.0
 20
0.0
 30
0.0
  9
$UCSYDIR
 10
0.0
 20
1.0
 30
0.0
  9
$PUCSNAME
  2

  9
$PUCSORG
 10
0.0
 20
0.0
 30
0.0
  9
$PUCSXDIR
 10
1.0
 20
0.0
 30
0.0
  9
$PUCSYDIR
 10
0.0
 20
1.0
 30
0.0
  9
$USERI1
 70
     0
  9
$USERI2
 70
     0
  9
$USERI3
 70
     0
  9
$USERI4
 70
     0
  9
$USERI5
 70
     0
  9
$USERR1
 40
0.0
  9
$USERR2
 40
0.0
  9
$USERR3
 40
0.0
  9
$USERR4
 40
0.0
  9
$USERR5
 40
0.0
  9
$WORLDVIEW
 70
     1
  9
$SHADEDGE
 70
     3
  9
$SHADEDIF
 70
    70
  9
$TILEMODE
 70
     1
  9
$MAXACTVP
 70
    48
  9
$PINSBASE
 10
0.0
 20
0.0
 30
0.0
  9
$PLIMCHECK
 70
     0
  9
$PEXTMIN
 10
1.000000E+20
 20
1.000000E+20
 30
1.000000E+20
  9
$PEXTMAX
 10
-1.000000E+20
 20
-1.000000E+20
 30
-1.000000E+20
  9
$PLIMMIN
 10
0.0
 20
0.0
  9
$PLIMMAX
 10
12.0
 20
9.0
  9
$UNITMODE
 70
     0
  9
$VISRETAIN
 70
     0
  9
$PLINEGEN
 70
     0
  9
$PSLTSCALE
 70
     0
  9
$TREEDEPTH
 70
  3020
  9
$PICKSTYLE
 70
     1
  9
$CMLSTYLE
  2
STANDARD
  9
$CMLJUST
 70
     0
  9
$CMLSCALE
 40
1.0
  9
$PROXYGRAPHICS
 70
     1
  9
$MEASUREMENT
 70
     0
  0
ENDSEC
  0
SECTION
  2
CLASSES
  0
CLASS
  1
LWPOLYLINE
  2
AcDbPolyline
  3
"AutoCAD"
 90
        0
280
     0
281
     1
  0
ENDSEC
  0
SECTION
  2
TABLES
  0
TABLE
  2
VPORT
  5
12
100
AcDbSymbolTable
 70
     2
  0
VPORT
  5
A6
100
AcDbSymbolTableRecord
100
AcDbViewportTableRecord
  2
*ACTIVE
 70
     0
 10
0.0
 20
0.0
 11
1.0
 21
1.0
 12
54.718388
 22
220.220966
 13
0.0
 23
0.0
 14
25.0
 24
25.0
 15
25.0
 25
25.0
 16
0.0
 26
0.0
 36
1.0
 17
0.0
 27
0.0
 37
0.0
 40
455.625948
 41
1.650376
 42
50.0
 43
0.0
 44
0.0
 50
0.0
 51
0.0
 71
     0
 72
  1000
 73
     1
 74
     0
 75
     1
 76
     1
 77
     0
 78
     1
  0
ENDTAB
  0
TABLE
  2
LTYPE
  5
D
100
AcDbSymbolTable
 70
     1
  0
LTYPE
  5
E
100
AcDbSymbolTableRecord
100
AcDbLinetypeTableRecord
  2
BYBLOCK
 70
     0
  3

 72
    65
 73
     0
 40
0.0
  0
LTYPE
  5
F
100
AcDbSymbolTableRecord
100
AcDbLinetypeTableRecord
  2
BYLAYER
 70
     0
  3

 72
    65
 73
     0
 40
0.0
  0
LTYPE
  5
5
100
AcDbSymbolTableRecord
100
AcDbLinetypeTableRecord
  2
CONTINUOUS
 70
     0
  3
Solid line
 72
    65
 73
     0
 40
0.0
  0
ENDTAB
  0
TABLE
  2
LAYER
  5
A
100
AcDbSymbolTable
 70
     4
  0
LAYER
  5
4
100
AcDbSymbolTableRecord
100
AcDbLayerTableRecord
  2
0
 70
     0
 62
     7
  6
CONTINUOUS
  0
LAYER
  5
24
100
AcDbSymbolTableRecord
100
AcDbLayerTableRecord
  2
VHH-025
 70
     0
 62
     7
  6
CONTINUOUS
  0
LAYER
  5
20
100
AcDbSymbolTableRecord
100
AcDbLayerTableRecord
  2
VHH-035
 70
     0
 62
     2
  6
CONTINUOUS
  0
LAYER
  5
1B
100
AcDbSymbolTableRecord
100
AcDbLayerTableRecord
  2
VHH-INS
 70
     0
 62
     7
  6
CONTINUOUS
  0
ENDTAB
  0
TABLE
  2
STYLE
  5
B
100
AcDbSymbolTable
 70
     2
  0
STYLE
  5
C
100
AcDbSymbolTableRecord
100
AcDbTextStyleTableRecord
  2
STANDARD
 70
     0
 40
0.0
 41
1.0
 50
0.0
 71
     0
 42
15.0
  3
txt
  4

  0
STYLE
  5
1C
100
AcDbSymbolTableRecord
100
AcDbTextStyleTableRecord
  2
ROMANS
 70
     0
 40
0.0
 41
1.0
 50
0.0
 71
     0
 42
20.0
  3
romans
  4

  0
ENDTAB
  0
TABLE
  2
VIEW
  5
10
100
AcDbSymbolTable
 70
     0
  0
ENDTAB
  0
TABLE
  2
UCS
  5
11
100
AcDbSymbolTable
 70
     0
  0
ENDTAB
  0
TABLE
  2
APPID
  5
14
100
AcDbSymbolTable
 70
     1
  0
APPID
  5
15
100
AcDbSymbolTableRecord
100
AcDbRegAppTableRecord
  2
ACAD
 70
     0
  0
ENDTAB
  0
TABLE
  2
DIMSTYLE
  5
16
100
AcDbSymbolTable
 70
     1
  0
DIMSTYLE
105
1E
100
AcDbSymbolTableRecord
100
AcDbDimStyleTableRecord
  2
STANDARD
 70
     0
  3

  4

  5

  6

  7

 40
1.0
 41
0.18
 42
0.0625
 43
0.38
 44
0.18
 45
0.0
 46
0.0
 47
0.0
 48
0.0
140
0.18
141
0.09
142
0.0
143
25.4
144
1.0
145
0.0
146
1.0
147
0.09
 71
     0
 72
     0
 73
     1
 74
     1
 75
     0
 76
     0
 77
     0
 78
     0
170
     0
171
     2
172
     0
173
     0
174
     0
175
     0
176
     0
177
     0
178
     0
270
     2
271
     4
272
     4
273
     2
274
     2
340
C
275
     0
280
     0
281
     0
282
     0
283
     1
284
     0
285
     0
286
     0
287
     3
288
     0
  0
ENDTAB
  0
TABLE
  2
BLOCK_RECORD
  5
1
100
AcDbSymbolTable
 70
     0
  0
BLOCK_RECORD
  5
2
100
AcDbSymbolTableRecord
100
AcDbBlockTableRecord
  2
*MODEL_SPACE
  0
BLOCK_RECORD
  5
7
100
AcDbSymbolTableRecord
100
AcDbBlockTableRecord
  2
*PAPER_SPACE
  0
ENDTAB
  0
ENDSEC
  0
SECTION
  2
BLOCKS
  0
BLOCK
  5
3
100
AcDbEntity
  8
0
100
AcDbBlockBegin
  2
*MODEL_SPACE
 70
     0
 10
0.0
 20
0.0
 30
0.0
  3
*MODEL_SPACE
  1

  0
ENDBLK
  5
6
100
AcDbEntity
  8
0
100
AcDbBlockEnd
  0
BLOCK
  5
8
100
AcDbEntity
 67
     1
  8
0
100
AcDbBlockBegin
  2
*PAPER_SPACE
 70
     0
 10
0.0
 20
0.0
 30
0.0
  3
*PAPER_SPACE
  1

  0
ENDBLK
  5
9
100
AcDbEntity
 67
     1
  8
0
100
AcDbBlockEnd
  0
ENDSEC
  0
SECTION
  2
ENTITIES
  0
LINE
  5
1F
100
AcDbEntity
  8
VHH-035
100
AcDbLine
 10
103.45
 20
37.0
 30
0.0
 11
103.45
 21
404.8
 31
0.0
  0
LINE
  5
21
100
AcDbEntity
  8
VHH-035
100
AcDbLine
 10
-103.45
 20
37.0
 30
0.0
 11
-103.45
 21
55.0
 31
0.0
  0
LINE
  5
22
100
AcDbEntity
  8
VHH-035
100
AcDbLine
 10
98.45
 20
0.0
 30
0.0
 11
-98.45
 21
0.0
 31
0.0
  0
LINE
  5
23
100
AcDbEntity
  8
VHH-025
100
AcDbLine
 10
102.25
 20
28.0
 30
0.0
 11
-102.25
 21
28.0
 31
0.0
  0
LINE
  5
25
100
AcDbEntity
  8
VHH-035
100
AcDbLine
 10
103.45
 20
37.0
 30
0.0
 11
-103.45
 21
37.0
 31
0.0
  0
LINE
  5
26
100
AcDbEntity
  8
VHH-035
100
AcDbLine
 10
-102.25
 20
3.8
 30
0.0
 11
-102.25
 21
28.0
 31
0.0
  0
ARC
  5
27
100
AcDbEntity
  8
VHH-035
100
AcDbCircle
 10
-98.45
 20
3.8
 30
0.0
 40
3.8
100
AcDbArc
 50
180.0
 51
270.0
  0
ARC
  5
28
100
AcDbEntity
  8
VHH-035
100
AcDbCircle
 10
-101.485526
 20
32.5
 30
0.0
 40
4.564474
100
AcDbArc
 50
99.641532
 51
260.358468
  0
LWPOLYLINE
  5
29
100
AcDbEntity
  8
VHH-INS
100
AcDbPolyline
 90
        2
 70
     1
 43
4.75
 10
-2.625
 20
0.0
 42
1.0
 10
2.625
 20
0.0
 42
1.0
  0
ARC
  5
2A
100
AcDbEntity
  8
VHH-035
100
AcDbCircle
 10
101.485526
 20
32.5
 30
0.0
 40
4.564474
100
AcDbArc
 50
279.641532
 51
80.358468
  0
LINE
  5
2B
100
AcDbEntity
  8
VHH-035
100
AcDbLine
 10
102.25
 20
3.8
 30
0.0
 11
102.25
 21
28.0
 31
0.0
  0
ARC
  5
2C
100
AcDbEntity
  8
VHH-035
100
AcDbCircle
 10
98.45
 20
3.8
 30
0.0
 40
3.8
100
AcDbArc
 50
270.0
 51
0.0
  0
LINE
  5
2D
100
AcDbEntity
  8
VHH-035
100
AcDbLine
 10
92.605326
 20
386.8
 30
0.0
 11
92.605326
 21
190.3
 31
0.0
  0
LINE
  5
2E
100
AcDbEntity
  8
VHH-035
100
AcDbLine
 10
76.605326
 20
386.8
 30
0.0
 11
76.605326
 21
190.3
 31
0.0
  0
LINE
  5
2F
100
AcDbEntity
  8
VHH-035
100
AcDbLine
 10
-103.45
 20
91.0
 30
0.0
 11
-103.45
 21
404.8
 31
0.0
  0
LWPOLYLINE
  5
30
100
AcDbEntity
  8
VHH-035
100
AcDbPolyline
 90
        6
 70
     1
 43
0.0
 10
40.5
 20
302.0
 10
-40.5
 20
302.0
 10
-40.5
 20
322.0
 10
-35.5
 20
332.0
 10
35.5
 20
332.0
 10
40.5
 20
322.0
  0
LWPOLYLINE
  5
31
100
AcDbEntity
  8
VHH-025
100
AcDbPolyline
 90
        4
 70
     0
 43
0.0
 10
40.5
 20
302.0
 10
35.5
 20
322.0
 10
-35.5
 20
322.0
 10
-40.5
 20
302.0
  0
LINE
  5
32
100
AcDbEntity
  8
VHH-035
100
AcDbLine
 10
-105.95
 20
55.0
 30
0.0
 11
-105.95
 21
91.0
 31
0.0
  0
LINE
  5
33
100
AcDbEntity
  8
VHH-035
100
AcDbLine
 10
-98.95
 20
55.0
 30
0.0
 11
-98.95
 21
91.0
 31
0.0
  0
LINE
  5
34
100
AcDbEntity
  8
VHH-035
100
AcDbLine
 10
-98.95
 20
55.0
 30
0.0
 11
-105.95
 21
55.0
 31
0.0
  0
LINE
  5
35
100
AcDbEntity
  8
VHH-035
100
AcDbLine
 10
-105.95
 20
70.5
 30
0.0
 11
-108.45
 21
60.5
 31
0.0
  0
LINE
  5
36
100
AcDbEntity
  8
VHH-035
100
AcDbLine
 10
-105.95
 20
60.5
 30
0.0
 11
-108.45
 21
60.5
 31
0.0
  0
LINE
  5
37
100
AcDbEntity
  8
VHH-035
100
AcDbLine
 10
-98.95
 20
91.0
 30
0.0
 11
-105.95
 21
91.0
 31
0.0
  0
LINE
  5
38
100
AcDbEntity
  8
VHH-035
100
AcDbLine
 10
-105.95
 20
85.5
 30
0.0
 11
-108.45
 21
75.5
 31
0.0
  0
LINE
  5
39
100
AcDbEntity
  8
VHH-035
100
AcDbLine
 10
-105.95
 20
75.5
 30
0.0
 11
-108.45
 21
75.5
 31
0.0
  0
LINE
  5
3A
100
AcDbEntity
  8
VHH-025
100
AcDbLine
 10
-23.638981
 20
70.5
 30
0.0
 11
23.638981
 21
70.5
 31
0.0
  0
LINE
  5
3B
100
AcDbEntity
  8
VHH-035
100
AcDbLine
 10
-27.5
 20
60.5
 30
0.0
 11
27.5
 21
60.5
 31
0.0
  0
LINE
  5
3C
100
AcDbEntity
  8
VHH-025
100
AcDbLine
 10
-23.638981
 20
85.5
 30
0.0
 11
23.638981
 21
85.5
 31
0.0
  0
LINE
  5
3D
100
AcDbEntity
  8
VHH-035
100
AcDbLine
 10
-27.5
 20
75.5
 30
0.0
 11
27.5
 21
75.5
 31
0.0
  0
LINE
  5
3E
100
AcDbEntity
  8
VHH-035
100
AcDbLine
 10
33.0
 20
91.0
 30
0.0
 11
-33.0
 21
91.0
 31
0.0
  0
LINE
  5
3F
100
AcDbEntity
  8
VHH-035
100
AcDbLine
 10
33.0
 20
55.0
 30
0.0
 11
-33.0
 21
55.0
 31
0.0
  0
LINE
  5
40
100
AcDbEntity
  8
VHH-035
100
AcDbLine
 10
-33.0
 20
55.0
 30
0.0
 11
-33.0
 21
91.0
 31
0.0
  0
ARC
  5
41
100
AcDbEntity
  8
VHH-025
100
AcDbCircle
 10
-23.638981
 20
68.0
 30
0.0
 40
2.5
100
AcDbArc
 50
90.0
 51
170.0
  0
LINE
  5
42
100
AcDbEntity
  8
VHH-025
100
AcDbLine
 10
-27.5
 20
60.5
 30
0.0
 11
-26.101
 21
68.43412
 31
0.0
  0
ARC
  5
43
100
AcDbEntity
  8
VHH-025
100
AcDbCircle
 10
-23.638981
 20
83.0
 30
0.0
 40
2.5
100
AcDbArc
 50
90.0
 51
170.0
  0
LINE
  5
44
100
AcDbEntity
  8
VHH-025
100
AcDbLine
 10
-27.5
 20
75.5
 30
0.0
 11
-26.101
 21
83.43412
 31
0.0
  0
LINE
  5
45
100
AcDbEntity
  8
VHH-035
100
AcDbLine
 10
33.0
 20
55.0
 30
0.0
 11
33.0
 21
91.0
 31
0.0
  0
ARC
  5
46
100
AcDbEntity
  8
VHH-025
100
AcDbCircle
 10
23.638981
 20
68.0
 30
0.0
 40
2.5
100
AcDbArc
 50
10.0
 51
90.0
  0
LINE
  5
47
100
AcDbEntity
  8
VHH-025
100
AcDbLine
 10
27.5
 20
60.5
 30
0.0
 11
26.101
 21
68.43412
 31
0.0
  0
ARC
  5
48
100
AcDbEntity
  8
VHH-025
100
AcDbCircle
 10
23.638981
 20
83.0
 30
0.0
 40
2.5
100
AcDbArc
 50
10.0
 51
90.0
  0
LINE
  5
49
100
AcDbEntity
  8
VHH-025
100
AcDbLine
 10
27.5
 20
75.5
 30
0.0
 11
26.101
 21
83.43412
 31
0.0
  0
ELLIPSE
  5
4A
100
AcDbEntity
  8
VHH-035
100
AcDbEllipse
 10
73.128731
 20
172.8
 30
0.0
 11
0.0
 21
-16.0
 31
0.0
210
0.0
220
0.0
230
-1.0
 40
0.707107
 41
0.0
 42
3.141592653589793
  0
ELLIPSE
  5
4B
100
AcDbEntity
  8
VHH-025
100
AcDbEllipse
 10
92.029948
 20
172.8
 30
0.0
 11
0.0
 21
-9.0
 31
0.0
210
0.0
220
0.0
230
-1.0
 40
0.707107
 41
0.0
 42
3.141592653589793
  0
ELLIPSE
  5
4C
100
AcDbEntity
  8
VHH-035
100
AcDbEllipse
 10
77.180705
 20
172.8
 30
0.0
 11
0.0
 21
-9.0
 31
0.0
210
0.0
220
0.0
230
-1.0
 40
0.707107
 41
0.0
 42
3.141592653589793
  0
ELLIPSE
  5
4D
100
AcDbEntity
  8
VHH-035
100
AcDbEllipse
 10
92.029948
 20
172.8
 30
0.0
 11
0.0
 21
-9.0
 31
0.0
210
0.0
220
0.0
230
-1.0
 40
0.707107
 41
3.141592653589793
 42
6.283185307179586
  0
ELLIPSE
  5
4E
100
AcDbEntity
  8
VHH-025
100
AcDbEllipse
 10
77.180705
 20
172.8
 30
0.0
 11
0.0
 21
-16.0
 31
0.0
210
0.0
220
0.0
230
-1.0
 40
0.707107
 41
0.0
 42
3.001893577324459
  0
LINE
  5
4F
100
AcDbEntity
  8
VHH-035
100
AcDbLine
 10
113.95
 20
160.8
 30
0.0
 11
113.95
 21
184.8
 31
0.0
  0
LINE
  5
50
100
AcDbEntity
  8
VHH-035
100
AcDbLine
 10
141.95
 20
162.3
 30
0.0
 11
141.95
 21
183.3
 31
0.0
  0
LINE
  5
51
100
AcDbEntity
  8
VHH-025
100
AcDbLine
 10
130.95
 20
162.3
 30
0.0
 11
130.95
 21
183.3
 31
0.0
  0
LINE
  5
52
100
AcDbEntity
  8
VHH-025
100
AcDbLine
 10
115.95
 20
162.3
 30
0.0
 11
115.95
 21
183.3
 31
0.0
  0
ARC
  5
53
100
AcDbEntity
  8
VHH-025
100
AcDbCircle
 10
143.484255
 20
170.445251
 30
0.0
 40
16.030143
100
AcDbArc
 50
327.363172
 51
31.412102
  0
LINE
  5
54
100
AcDbEntity
  8
VHH-035
100
AcDbLine
 10
188.95
 20
164.8
 30
0.0
 11
188.95
 21
180.8
 31
0.0
  0
LINE
  5
55
100
AcDbEntity
  8
VHH-035
100
AcDbLine
 10
203.95
 20
164.8
 30
0.0
 11
203.95
 21
180.8
 31
0.0
  0
ARC
  5
56
100
AcDbEntity
  8
VHH-025
100
AcDbCircle
 10
195.971984
 20
170.187526
 30
0.0
 40
12.476434
100
AcDbArc
 50
133.082165
 51
198.155046
  0
LINE
  5
57
100
AcDbEntity
  8
VHH-035
100
AcDbLine
 10
141.95
 20
162.3
 30
0.0
 11
156.983333
 21
161.8
 31
0.0
  0
ELLIPSE
  5
58
100
AcDbEntity
  8
VHH-035
100
AcDbEllipse
 10
77.180705
 20
172.8
 30
0.0
 11
0.0
 21
-16.0
 31
0.0
210
0.0
220
0.0
230
-1.0
 40
0.707107
 41
5.309795397030077
 42
6.283185307179586
  0
LINE
  5
59
100
AcDbEntity
  8
VHH-035
100
AcDbLine
 10
92.029948
 20
163.8
 30
0.0
 11
77.180705
 21
163.8
 31
0.0
  0
LINE
  5
5A
100
AcDbEntity
  8
VHH-035
100
AcDbLine
 10
77.180705
 20
156.8
 30
0.0
 11
73.128731
 21
156.8
 31
0.0
  0
LINE
  5
5B
100
AcDbEntity
  8
VHH-035
100
AcDbLine
 10
141.95
 20
162.3
 30
0.0
 11
113.95
 21
162.3
 31
0.0
  0
LINE
  5
5C
100
AcDbEntity
  8
VHH-035
100
AcDbLine
 10
113.95
 20
160.8
 30
0.0
 11
103.45
 21
160.8
 31
0.0
  0
LINE
  5
5D
100
AcDbEntity
  8
VHH-035
100
AcDbLine
 10
203.95
 20
164.8
 30
0.0
 11
188.95
 21
164.8
 31
0.0
  0
LINE
  5
5E
100
AcDbEntity
  8
VHH-035
100
AcDbLine
 10
160.45
 20
136.8
 30
0.0
 11
160.45
 21
148.8
 31
0.0
  0
LINE
  5
5F
100
AcDbEntity
  8
VHH-035
100
AcDbLine
 10
179.45
 20
136.8
 30
0.0
 11
179.45
 21
148.8
 31
0.0
  0
LINE
  5
60
100
AcDbEntity
  8
VHH-035
100
AcDbLine
 10
179.45
 20
136.8
 30
0.0
 11
160.45
 21
136.8
 31
0.0
  0
LINE
  5
61
100
AcDbEntity
  8
VHH-025
100
AcDbLine
 10
179.45
 20
148.8
 30
0.0
 11
160.45
 21
148.8
 31
0.0
  0
LINE
  5
62
100
AcDbEntity
  8
VHH-035
100
AcDbLine
 10
156.983333
 20
161.8
 30
0.0
 11
160.45
 21
148.8
 31
0.0
  0
LINE
  5
63
100
AcDbEntity
  8
VHH-035
100
AcDbLine
 10
184.116667
 20
166.3
 30
0.0
 11
179.45
 21
148.8
 31
0.0
  0
LINE
  5
64
100
AcDbEntity
  8
VHH-035
100
AcDbLine
 10
188.95
 20
166.3
 30
0.0
 11
184.116667
 21
166.3
 31
0.0
  0
LINE
  5
65
100
AcDbEntity
  8
VHH-035
100
AcDbLine
 10
148.95
 20
195.8
 30
0.0
 11
150.45
 21
186.3
 31
0.0
  0
ARC
  5
66
100
AcDbEntity
  8
VHH-035
100
AcDbCircle
 10
150.95
 20
195.8
 30
0.0
 40
2.0
100
AcDbArc
 50
90.0
 51
180.0
  0
LINE
  5
67
100
AcDbEntity
  8
VHH-035
100
AcDbLine
 10
141.95
 20
183.3
 30
0.0
 11
152.45
 21
183.8
 31
0.0
  0
LINE
  5
68
100
AcDbEntity
  8
VHH-035
100
AcDbLine
 10
93.605326
 20
190.3
 30
0.0
 11
75.605326
 21
190.3
 31
0.0
  0
LINE
  5
69
100
AcDbEntity
  8
VHH-035
100
AcDbLine
 10
93.605326
 20
181.8
 30
0.0
 11
75.605326
 21
181.8
 31
0.0
  0
LINE
  5
6A
100
AcDbEntity
  8
VHH-035
100
AcDbLine
 10
75.605326
 20
190.3
 30
0.0
 11
75.605326
 21
181.8
 31
0.0
  0
LINE
  5
6B
100
AcDbEntity
  8
VHH-035
100
AcDbLine
 10
75.605326
 20
188.8
 30
0.0
 11
73.128731
 21
188.8
 31
0.0
  0
LINE
  5
6C
100
AcDbEntity
  8
VHH-035
100
AcDbLine
 10
93.605326
 20
190.3
 30
0.0
 11
93.605326
 21
181.8
 31
0.0
  0
LINE
  5
6D
100
AcDbEntity
  8
VHH-035
100
AcDbLine
 10
141.95
 20
183.3
 30
0.0
 11
113.95
 21
183.3
 31
0.0
  0
LINE
  5
6E
100
AcDbEntity
  8
VHH-025
100
AcDbLine
 10
115.95
 20
172.8
 30
0.0
 11
130.95
 21
172.8
 31
0.0
  0
LINE
  5
6F
100
AcDbEntity
  8
VHH-035
100
AcDbLine
 10
113.95
 20
184.8
 30
0.0
 11
103.45
 21
184.8
 31
0.0
  0
LINE
  5
70
100
AcDbEntity
  8
VHH-025
100
AcDbLine
 10
113.95
 20
172.8
 30
0.0
 11
103.45
 21
172.8
 31
0.0
  0
LINE
  5
71
100
AcDbEntity
  8
VHH-035
100
AcDbLine
 10
203.95
 20
180.8
 30
0.0
 11
188.95
 21
180.8
 31
0.0
  0
LINE
  5
72
100
AcDbEntity
  8
VHH-035
100
AcDbLine
 10
214.893224
 20
236.119907
 30
0.0
 11
158.45
 21
209.8
 31
0.0
  0
LINE
  5
73
100
AcDbEntity
  8
VHH-035
100
AcDbLine
 10
217.944213
 20
229.267273
 30
0.0
 11
182.45
 21
214.200873
 31
0.0
  0
LINE
  5
74
100
AcDbEntity
  8
VHH-035
100
AcDbLine
 10
158.45
 20
200.8
 30
0.0
 11
158.45
 21
209.8
 31
0.0
  0
ARC
  5
75
100
AcDbEntity
  8
VHH-035
100
AcDbCircle
 10
173.45
 20
206.8
 30
0.0
 40
9.0
100
AcDbArc
 50
270.0
 51
0.0
  0
LINE
  5
76
100
AcDbEntity
  8
VHH-035
100
AcDbLine
 10
188.95
 20
197.8
 30
0.0
 11
150.95
 21
197.8
 31
0.0
  0
LINE
  5
77
100
AcDbEntity
  8
VHH-035
100
AcDbLine
 10
189.45
 20
186.3
 30
0.0
 11
150.45
 21
186.3
 31
0.0
  0
LINE
  5
78
100
AcDbEntity
  8
VHH-025
100
AcDbLine
 10
186.944986
 20
178.8
 30
0.0
 11
157.165032
 21
178.8
 31
0.0
  0
ARC
  5
79
100
AcDbEntity
  8
VHH-025
100
AcDbCircle
 10
142.396511
 20
169.596343
 30
0.0
 40
17.401624
100
AcDbArc
 50
31.930923
 51
54.708764
  0
LINE
  5
7A
100
AcDbEntity
  8
VHH-035
100
AcDbLine
 10
152.45
 20
183.8
 30
0.0
 11
152.45
 21
186.3
 31
0.0
  0
ARC
  5
7B
100
AcDbEntity
  8
VHH-035
100
AcDbCircle
 10
161.45
 20
200.8
 30
0.0
 40
3.0
100
AcDbArc
 50
180.0
 51
270.0
  0
LINE
  5
7C
100
AcDbEntity
  8
VHH-035
100
AcDbLine
 10
190.95
 20
195.8
 30
0.0
 11
189.45
 21
186.3
 31
0.0
  0
LINE
  5
7D
100
AcDbEntity
  8
VHH-035
100
AcDbLine
 10
187.45
 20
179.3
 30
0.0
 11
187.45
 21
186.3
 31
0.0
  0
LINE
  5
7E
100
AcDbEntity
  8
VHH-035
100
AcDbLine
 10
188.95
 20
179.3
 30
0.0
 11
187.45
 21
179.3
 31
0.0
  0
ARC
  5
7F
100
AcDbEntity
  8
VHH-035
100
AcDbCircle
 10
188.95
 20
195.8
 30
0.0
 40
2.0
100
AcDbArc
 50
0.0
 51
90.0
  0
LINE
  5
80
100
AcDbEntity
  8
VHH-035
100
AcDbLine
 10
182.45
 20
206.8
 30
0.0
 11
182.45
 21
214.200873
 31
0.0
  0
LINE
  5
81
100
AcDbEntity
  8
VHH-035
100
AcDbLine
 10
217.944213
 20
229.267273
 30
0.0
 11
214.893224
 21
236.119907
 31
0.0
  0
LINE
  5
82
100
AcDbEntity
  8
VHH-035
100
AcDbLine
 10
96.0
 20
415.6
 30
0.0
 11
-96.0
 21
415.6
 31
0.0
  0
LINE
  5
83
100
AcDbEntity
  8
VHH-035
100
AcDbLine
 10
104.65
 20
404.8
 30
0.0
 11
-104.65
 21
404.8
 31
0.0
  0
LINE
  5
84
100
AcDbEntity
  8
VHH-035
100
AcDbLine
 10
101.15
 20
414.8
 30
0.0
 11
-101.15
 21
414.8
 31
0.0
  0
ARC
  5
85
100
AcDbEntity
  8
VHH-035
100
AcDbCircle
 10
0.0
 20
435.4
 30
0.0
 40
10.0
100
AcDbArc
 50
306.869898
 51
233.130102
  0
LINE
  5
86
100
AcDbEntity
  8
VHH-035
100
AcDbLine
 10
-96.0
 20
414.8
 30
0.0
 11
-96.0
 21
415.6
 31
0.0
  0
LINE
  5
87
100
AcDbEntity
  8
VHH-035
100
AcDbLine
 10
-104.65
 20
404.8
 30
0.0
 11
-104.65
 21
411.3
 31
0.0
  0
ARC
  5
88
100
AcDbEntity
  8
VHH-035
100
AcDbCircle
 10
-101.15
 20
411.3
 30
0.0
 40
3.5
100
AcDbArc
 50
90.0
 51
180.0
  0
LINE
  5
89
100
AcDbEntity
  8
VHH-025
100
AcDbLine
 10
-35.5
 20
322.0
 30
0.0
 11
-35.5
 21
332.0
 31
0.0
  0
LINE
  5
8A
100
AcDbEntity
  8
VHH-025
100
AcDbLine
 10
35.5
 20
322.0
 30
0.0
 11
35.5
 21
332.0
 31
0.0
  0
LINE
  5
8B
100
AcDbEntity
  8
VHH-035
100
AcDbLine
 10
4.0
 20
417.4
 30
0.0
 11
4.0
 21
427.4
 31
0.0
  0
LINE
  5
8C
100
AcDbEntity
  8
VHH-035
100
AcDbLine
 10
-4.0
 20
417.4
 30
0.0
 11
-4.0
 21
427.4
 31
0.0
  0
LINE
  5
8D
100
AcDbEntity
  8
VHH-035
100
AcDbLine
 10
-7.0
 20
415.6
 30
0.0
 11
-7.0
 21
417.4
 31
0.0
  0
LINE
  5
8E
100
AcDbEntity
  8
VHH-035
100
AcDbLine
 10
7.0
 20
415.6
 30
0.0
 11
7.0
 21
417.4
 31
0.0
  0
LINE
  5
8F
100
AcDbEntity
  8
VHH-035
100
AcDbLine
 10
6.0
 20
427.4
 30
0.0
 11
-6.0
 21
427.4
 31
0.0
  0
LINE
  5
90
100
AcDbEntity
  8
VHH-035
100
AcDbLine
 10
7.0
 20
417.4
 30
0.0
 11
-7.0
 21
417.4
 31
0.0
  0
LINE
  5
91
100
AcDbEntity
  8
VHH-035
100
AcDbLine
 10
139.45
 20
348.5
 30
0.0
 11
139.45
 21
377.5
 31
0.0
  0
LINE
  5
92
100
AcDbEntity
  8
VHH-035
100
AcDbLine
 10
137.95
 20
347.0
 30
0.0
 11
103.45
 21
347.0
 31
0.0
  0
ARC
  5
93
100
AcDbEntity
  8
VHH-035
100
AcDbCircle
 10
137.95
 20
348.5
 30
0.0
 40
1.5
100
AcDbArc
 50
270.0
 51
0.0
  0
ARC
  5
94
100
AcDbEntity
  8
VHH-035
100
AcDbCircle
 10
101.15
 20
411.3
 30
0.0
 40
3.5
100
AcDbArc
 50
0.0
 51
90.0
  0
LINE
  5
95
100
AcDbEntity
  8
VHH-035
100
AcDbLine
 10
93.605326
 20
398.3
 30
0.0
 11
75.605326
 21
398.3
 31
0.0
  0
LINE
  5
96
100
AcDbEntity
  8
VHH-035
100
AcDbLine
 10
93.605326
 20
386.8
 30
0.0
 11
75.605326
 21
386.8
 31
0.0
  0
LINE
  5
97
100
AcDbEntity
  8
VHH-035
100
AcDbLine
 10
75.605326
 20
398.3
 30
0.0
 11
75.605326
 21
386.8
 31
0.0
  0
LINE
  5
98
100
AcDbEntity
  8
VHH-035
100
AcDbLine
 10
93.605326
 20
398.3
 30
0.0
 11
93.605326
 21
386.8
 31
0.0
  0
LINE
  5
99
100
AcDbEntity
  8
VHH-035
100
AcDbLine
 10
96.0
 20
414.8
 30
0.0
 11
96.0
 21
415.6
 31
0.0
  0
LINE
  5
9A
100
AcDbEntity
  8
VHH-035
100
AcDbLine
 10
136.85
 20
401.0
 30
0.0
 11
111.85
 21
401.0
 31
0.0
  0
ARC
  5
9B
100
AcDbEntity
  8
VHH-025
100
AcDbCircle
 10
124.35
 20
389.020833
 30
0.0
 40
16.020833
100
AcDbArc
 50
218.717988
 51
321.282012
  0
LINE
  5
9C
100
AcDbEntity
  8
VHH-035
100
AcDbLine
 10
111.85
 20
379.0
 30
0.0
 11
111.85
 21
401.0
 31
0.0
  0
LINE
  5
9D
100
AcDbEntity
  8
VHH-035
100
AcDbLine
 10
111.85
 20
379.0
 30
0.0
 11
103.45
 21
379.0
 31
0.0
  0
LINE
  5
9E
100
AcDbEntity
  8
VHH-035
100
AcDbLine
 10
136.85
 20
379.0
 30
0.0
 11
136.85
 21
401.0
 31
0.0
  0
LINE
  5
9F
100
AcDbEntity
  8
VHH-035
100
AcDbLine
 10
137.95
 20
379.0
 30
0.0
 11
136.85
 21
379.0
 31
0.0
  0
ARC
  5
A0
100
AcDbEntity
  8
VHH-035
100
AcDbCircle
 10
137.95
 20
377.5
 30
0.0
 40
1.5
100
AcDbArc
 50
0.0
 51
90.0
  0
LINE
  5
A1
100
AcDbEntity
  8
VHH-035
100
AcDbLine
 10
104.65
 20
404.8
 30
0.0
 11
104.65
 21
411.3
 31
0.0
  0
ENDSEC
  0
SECTION
  2
OBJECTS
  0
DICTIONARY
  5
1A
100
AcDbDictionary
  3
ACAD_GROUP
350
18
  3
ACAD_MLINESTYLE
350
19
  0
DICTIONARY
  5
18
102
{ACAD_REACTORS
330
1A
102
}
100
AcDbDictionary
  0
DICTIONARY
  5
19
102
{ACAD_REACTORS
330
1A
102
}
100
AcDbDictionary
  3
STANDARD
350
1D
  0
MLINESTYLE
  5
1D
102
{ACAD_REACTORS
330
19
102
}
100
AcDbMlineStyle
  2
STANDARD
 70
     0
  3

 62
   256
 51
90.0
 52
90.0
 71
     2
 49
0.5
 62
   256
  6
BYLAYER
 49
-0.5
 62
   256
  6
BYLAYER
  0
ENDSEC
  0
EOF
